Spanish Guitar Lesson

httpv://www.youtube.com/watch?v=9AMB4L9PUFI

Grundsätzlich so:

e -----0-3-1-0----------------1------------------------
H ---1-------------0-3-1-0---1--0-1-3-1-0-3-1-0-------
G --2-----------1-----------2------------------2-0-----
D -2-----------2-----------3---------------------3-2-0-
A-------------2-----------------------------------------
E-------------------------------------------------------

e------------------------
H------------------------
G--------2-----1(4*)----
D-----2-----1-----------
A--3-----2--------------
E-----------------------

Leave a reply

Your email address will not be published.

You may use these HTML tags and attributes:

<a href="" title=""> <abbr title=""> <acronym title=""> <b> <blockquote cite=""> <cite> <code> <del datetime=""> <em> <i> <q cite=""> <strike> <strong>